0
SECTION
2
HEADER
9
$LTSCALE
40
1.0
9
$LIMMIN
10
2516
20
0
9
$LIMMAX
10
10117
20
4478
9
$EXTMIN
10
2516
20
0
9
$EXTMAX
10
10117
20
4478
9
$SNAPMODE
70
0
9
$SNAPUNIT
10
1.0
20
1.0
9
$GRIDMODE
70
0
9
$GRIDUNIT
10
1.0
20
1.0
9
$ORTHOMODE
70
0
9
$TEXTSTYLE
7
txt
9
$CLAYER
8
1
9
$CECOLOR
62
7
9
$CELTYPE
6
CONTINUOUS
9
$PLINEWID
40
0.0
9
$OSMODE
70
0
9
$FILLMODE
70
1
9
$CHAMFERA
40
0.5
9
$CHAMFERB
40
0.5
9
$SCOORDS
70
1
9
$FILLETRAD
40
0.5
9
$INSBASE
10
0.0
20
0.0
9
$SPLFRAME
70
0
9
$SPLINESEGS
70
8
0
ENDSEC
0
SECTION
2
TABLES
0
TABLE
2
LTYPE
70
9
0
LTYPE
2
CONTINUOUS
70
64
3
Solid line
72
65
73
0
40
0.0
0
ENDTAB
0
TABLE
2
STYLE
70
1
0
STYLE
2
ROMANS
70
0
40
0.000
41
1.000
50
0.000
71
0
42
0.000
3
ROMANS
4

0
ENDTAB
0
TABLE
2
LAYER
70
10
0
LAYER
2
1
70
0
62
7
6
CONTINUOUS
0
LAYER
2
2
70
0
62
7
6
CONTINUOUS
0
LAYER
2
3
70
0
62
7
6
CONTINUOUS
0
LAYER
2
4
70
0
62
7
6
CONTINUOUS
0
LAYER
2
5
70
0
62
7
6
CONTINUOUS
0
LAYER
2
6
70
0
62
7
6
CONTINUOUS
0
LAYER
2
7
70
0
62
7
6
CONTINUOUS
0
LAYER
2
8
70
0
62
7
6
CONTINUOUS
0
LAYER
2
9
70
0
62
7
6
CONTINUOUS
0
LAYER
2
10
70
0
62
7
6
CONTINUOUS
0
ENDTAB
0
ENDSEC
0
SECTION
2
ENTITIES
0
POLYLINE
8
0
62
150
66
1
40
1
41
1
0
VERTEX
8
0
10
7445
20
2442
0
VERTEX
8
0
10
7448
20
2435
0
VERTEX
8
0
10
7550
20
2246
0
VERTEX
8
0
10
7641
20
2048
0
VERTEX
8
0
10
7722
20
1844
0
VERTEX
8
0
10
7793
20
1631
0
VERTEX
8
0
10
7855
20
1412
0
VERTEX
8
0
10
7906
20
1185
0
VERTEX
8
0
10
7947
20
951
0
VERTEX
8
0
10
7978
20
709
0
VERTEX
8
0
10
8075
20
709
0
VERTEX
8
0
10
8050
20
926
0
VERTEX
8
0
10
8016
20
1136
0
VERTEX
8
0
10
7975
20
1342
0
VERTEX
8
0
10
7925
20
1541
0
VERTEX
8
0
10
7869
20
1736
0
VERTEX
8
0
10
7804
20
1924
0
VERTEX
8
0
10
7733
20
2108
0
VERTEX
8
0
10
7653
20
2285
0
VERTEX
8
0
10
7515
20
2551
0
VERTEX
8
0
10
7363
20
2797
0
VERTEX
8
0
10
7202
20
3010
0
VERTEX
8
0
10
7034
20
3190
0
VERTEX
8
0
10
6858
20
3337
0
VERTEX
8
0
10
6675
20
3452
0
VERTEX
8
0
10
6483
20
3533
0
VERTEX
8
0
10
6284
20
3582
0
VERTEX
8
0
10
6076
20
3597
0
VERTEX
8
0
10
5870
20
3582
0
VERTEX
8
0
10
5671
20
3533
0
VERTEX
8
0
10
5479
20
3452
0
VERTEX
8
0
10
5295
20
3337
0
VERTEX
8
0
10
5119
20
3190
0
VERTEX
8
0
10
4951
20
3010
0
VERTEX
8
0
10
4790
20
2797
0
VERTEX
8
0
10
4636
20
2551
0
VERTEX
8
0
10
4498
20
2285
0
VERTEX
8
0
10
4349
20
1924
0
VERTEX
8
0
10
4228
20
1541
0
VERTEX
8
0
10
4137
20
1136
0
VERTEX
8
0
10
4076
20
709
0
VERTEX
8
0
10
4205
20
709
0
VERTEX
8
0
10
4236
20
951
0
VERTEX
8
0
10
4277
20
1185
0
VERTEX
8
0
10
4328
20
1412
0
VERTEX
8
0
10
4389
20
1631
0
VERTEX
8
0
10
4460
20
1844
0
VERTEX
8
0
10
4541
20
2048
0
VERTEX
8
0
10
4632
20
2246
0
VERTEX
8
0
10
4733
20
2435
0
VERTEX
8
0
10
4759
20
2477
0
VERTEX
8
0
10
4902
20
2700
0
VERTEX
8
0
10
5051
20
2892
0
VERTEX
8
0
10
5207
20
3055
0
VERTEX
8
0
10
5369
20
3188
0
VERTEX
8
0
10
5540
20
3292
0
VERTEX
8
0
10
5717
20
3365
0
VERTEX
8
0
10
5901
20
3410
0
VERTEX
8
0
10
6091
20
3424
0
VERTEX
8
0
10
6287
20
3409
0
VERTEX
8
0
10
6474
20
3363
0
VERTEX
8
0
10
6655
20
3287
0
VERTEX
8
0
10
6827
20
3179
0
VERTEX
8
0
10
6993
20
3041
0
VERTEX
8
0
10
7151
20
2872
0
VERTEX
8
0
10
7302
20
2673
0
VERTEX
8
0
10
7445
20
2442
0
SEQEND
0
POLYLINE
8
0
62
72
66
1
40
1
41
1
0
VERTEX
8
0
10
7515
20
2551
0
VERTEX
8
0
10
7653
20
2285
0
VERTEX
8
0
10
7733
20
2108
0
VERTEX
8
0
10
7804
20
1924
0
VERTEX
8
0
10
7869
20
1736
0
VERTEX
8
0
10
7925
20
1541
0
VERTEX
8
0
10
7975
20
1342
0
VERTEX
8
0
10
8016
20
1136
0
VERTEX
8
0
10
8050
20
926
0
VERTEX
8
0
10
8075
20
709
0
VERTEX
8
0
10
8189
20
709
0
VERTEX
8
0
10
8146
20
1066
0
VERTEX
8
0
10
8082
20
1409
0
VERTEX
8
0
10
8000
20
1738
0
VERTEX
8
0
10
7898
20
2052
0
VERTEX
8
0
10
7755
20
2398
0
VERTEX
8
0
10
7586
20
2724
0
VERTEX
8
0
10
7507
20
2860
0
VERTEX
8
0
10
7425
20
2986
0
VERTEX
8
0
10
7255
20
3212
0
VERTEX
8
0
10
7077
20
3404
0
VERTEX
8
0
10
6891
20
3560
0
VERTEX
8
0
10
6697
20
3682
0
VERTEX
8
0
10
6597
20
3730
0
VERTEX
8
0
10
6494
20
3769
0
VERTEX
8
0
10
6284
20
3821
0
VERTEX
8
0
10
6064
20
3838
0
VERTEX
8
0
10
5846
20
3821
0
VERTEX
8
0
10
5634
20
3769
0
VERTEX
8
0
10
5432
20
3682
0
VERTEX
8
0
10
5236
20
3560
0
VERTEX
8
0
10
5050
20
3404
0
VERTEX
8
0
10
4871
20
3212
0
VERTEX
8
0
10
4701
20
2986
0
VERTEX
8
0
10
4537
20
2724
0
VERTEX
8
0
10
4361
20
2377
0
VERTEX
8
0
10
4212
20
2007
0
VERTEX
8
0
10
4117
20
1703
0
VERTEX
8
0
10
4040
20
1385
0
VERTEX
8
0
10
3981
20
1054
0
VERTEX
8
0
10
3938
20
709
0
VERTEX
8
0
10
4076
20
709
0
VERTEX
8
0
10
4137
20
1136
0
VERTEX
8
0
10
4228
20
1541
0
VERTEX
8
0
10
4349
20
1924
0
VERTEX
8
0
10
4498
20
2285
0
VERTEX
8
0
10
4636
20
2551
0
VERTEX
8
0
10
4790
20
2797
0
VERTEX
8
0
10
4951
20
3010
0
VERTEX
8
0
10
5119
20
3190
0
VERTEX
8
0
10
5295
20
3337
0
VERTEX
8
0
10
5479
20
3452
0
VERTEX
8
0
10
5671
20
3533
0
VERTEX
8
0
10
5870
20
3582
0
VERTEX
8
0
10
6076
20
3597
0
VERTEX
8
0
10
6284
20
3582
0
VERTEX
8
0
10
6483
20
3533
0
VERTEX
8
0
10
6675
20
3452
0
VERTEX
8
0
10
6858
20
3337
0
VERTEX
8
0
10
7034
20
3190
0
VERTEX
8
0
10
7202
20
3010
0
VERTEX
8
0
10
7363
20
2797
0
VERTEX
8
0
10
7515
20
2551
0
SEQEND
0
POLYLINE
8
0
62
2
66
1
40
1
41
1
0
VERTEX
8
0
10
8189
20
709
0
VERTEX
8
0
10
8294
20
709
0
VERTEX
8
0
10
8263
20
999
0
VERTEX
8
0
10
8219
20
1279
0
VERTEX
8
0
10
8163
20
1551
0
VERTEX
8
0
10
8095
20
1813
0
VERTEX
8
0
10
8008
20
2092
0
VERTEX
8
0
10
7907
20
2359
0
VERTEX
8
0
10
7792
20
2616
0
VERTEX
8
0
10
7661
20
2862
0
VERTEX
8
0
10
7578
20
3004
0
VERTEX
8
0
10
7492
20
3136
0
VERTEX
8
0
10
7404
20
3260
0
VERTEX
8
0
10
7313
20
3373
0
VERTEX
8
0
10
7221
20
3479
0
VERTEX
8
0
10
7126
20
3574
0
VERTEX
8
0
10
6930
20
3738
0
VERTEX
8
0
10
6726
20
3866
0
VERTEX
8
0
10
6621
20
3917
0
VERTEX
8
0
10
6513
20
3957
0
VERTEX
8
0
10
6404
20
3990
0
VERTEX
8
0
10
6292
20
4012
0
VERTEX
8
0
10
6178
20
4026
0
VERTEX
8
0
10
6061
20
4030
0
VERTEX
8
0
10
5832
20
4012
0
VERTEX
8
0
10
5721
20
3990
0
VERTEX
8
0
10
5610
20
3957
0
VERTEX
8
0
10
5503
20
3917
0
VERTEX
8
0
10
5397
20
3866
0
VERTEX
8
0
10
5192
20
3738
0
VERTEX
8
0
10
4997
20
3574
0
VERTEX
8
0
10
4902
20
3479
0
VERTEX
8
0
10
4809
20
3373
0
VERTEX
8
0
10
4719
20
3260
0
VERTEX
8
0
10
4630
20
3136
0
VERTEX
8
0
10
4459
20
2862
0
VERTEX
8
0
10
4321
20
2600
0
VERTEX
8
0
10
4199
20
2326
0
VERTEX
8
0
10
4093
20
2040
0
VERTEX
8
0
10
4003
20
1740
0
VERTEX
8
0
10
3944
20
1494
0
VERTEX
8
0
10
3893
20
1240
0
VERTEX
8
0
10
3854
20
979
0
VERTEX
8
0
10
3824
20
709
0
VERTEX
8
0
10
3938
20
709
0
VERTEX
8
0
10
3981
20
1054
0
VERTEX
8
0
10
4040
20
1385
0
VERTEX
8
0
10
4117
20
1703
0
VERTEX
8
0
10
4212
20
2007
0
VERTEX
8
0
10
4361
20
2377
0
VERTEX
8
0
10
4537
20
2724
0
VERTEX
8
0
10
4701
20
2986
0
VERTEX
8
0
10
4871
20
3212
0
VERTEX
8
0
10
5050
20
3404
0
VERTEX
8
0
10
5236
20
3560
0
VERTEX
8
0
10
5432
20
3682
0
VERTEX
8
0
10
5634
20
3769
0
VERTEX
8
0
10
5846
20
3821
0
VERTEX
8
0
10
6064
20
3838
0
VERTEX
8
0
10
6284
20
3821
0
VERTEX
8
0
10
6494
20
3769
0
VERTEX
8
0
10
6597
20
3730
0
VERTEX
8
0
10
6697
20
3682
0
VERTEX
8
0
10
6891
20
3560
0
VERTEX
8
0
10
7077
20
3404
0
VERTEX
8
0
10
7255
20
3212
0
VERTEX
8
0
10
7425
20
2986
0
VERTEX
8
0
10
7507
20
2860
0
VERTEX
8
0
10
7586
20
2724
0
VERTEX
8
0
10
7755
20
2398
0
VERTEX
8
0
10
7898
20
2052
0
VERTEX
8
0
10
8000
20
1738
0
VERTEX
8
0
10
8082
20
1409
0
VERTEX
8
0
10
8146
20
1066
0
VERTEX
8
0
10
8189
20
709
0
SEQEND
0
POLYLINE
8
0
62
30
66
1
40
1
41
1
0
VERTEX
8
0
10
8294
20
709
0
VERTEX
8
0
10
8408
20
709
0
VERTEX
8
0
10
8308
20
1468
0
VERTEX
8
0
10
8263
20
1684
0
VERTEX
8
0
10
8209
20
1894
0
VERTEX
8
0
10
8081
20
2298
0
VERTEX
8
0
10
8007
20
2493
0
VERTEX
8
0
10
7924
20
2682
0
VERTEX
8
0
10
7738
20
3044
0
VERTEX
8
0
10
7651
20
3193
0
VERTEX
8
0
10
7561
20
3331
0
VERTEX
8
0
10
7469
20
3461
0
VERTEX
8
0
10
7374
20
3580
0
VERTEX
8
0
10
7277
20
3691
0
VERTEX
8
0
10
7178
20
3791
0
VERTEX
8
0
10
7077
20
3882
0
VERTEX
8
0
10
6972
20
3962
0
VERTEX
8
0
10
6867
20
4035
0
VERTEX
8
0
10
6758
20
4096
0
VERTEX
8
0
10
6648
20
4149
0
VERTEX
8
0
10
6535
20
4191
0
VERTEX
8
0
10
6420
20
4225
0
VERTEX
8
0
10
6303
20
4248
0
VERTEX
8
0
10
6184
20
4263
0
VERTEX
8
0
10
6061
20
4267
0
VERTEX
8
0
10
5940
20
4263
0
VERTEX
8
0
10
5821
20
4248
0
VERTEX
8
0
10
5704
20
4225
0
VERTEX
8
0
10
5588
20
4191
0
VERTEX
8
0
10
5476
20
4149
0
VERTEX
8
0
10
5365
20
4096
0
VERTEX
8
0
10
5257
20
4035
0
VERTEX
8
0
10
5150
20
3962
0
VERTEX
8
0
10
5047
20
3882
0
VERTEX
8
0
10
4945
20
3791
0
VERTEX
8
0
10
4846
20
3691
0
VERTEX
8
0
10
4748
20
3580
0
VERTEX
8
0
10
4654
20
3461
0
VERTEX
8
0
10
4561
20
3331
0
VERTEX
8
0
10
4471
20
3193
0
VERTEX
8
0
10
4382
20
3044
0
VERTEX
8
0
10
4281
20
2855
0
VERTEX
8
0
10
4187
20
2660
0
VERTEX
8
0
10
4101
20
2459
0
VERTEX
8
0
10
4023
20
2250
0
VERTEX
8
0
10
3955
20
2037
0
VERTEX
8
0
10
3893
20
1818
0
VERTEX
8
0
10
3839
20
1593
0
VERTEX
8
0
10
3793
20
1361
0
VERTEX
8
0
10
3712
20
709
0
VERTEX
8
0
10
3824
20
709
0
VERTEX
8
0
10
3854
20
979
0
VERTEX
8
0
10
3893
20
1240
0
VERTEX
8
0
10
3944
20
1494
0
VERTEX
8
0
10
4003
20
1740
0
VERTEX
8
0
10
4093
20
2040
0
VERTEX
8
0
10
4199
20
2326
0
VERTEX
8
0
10
4321
20
2600
0
VERTEX
8
0
10
4459
20
2862
0
VERTEX
8
0
10
4630
20
3136
0
VERTEX
8
0
10
4719
20
3260
0
VERTEX
8
0
10
4809
20
3373
0
VERTEX
8
0
10
4902
20
3479
0
VERTEX
8
0
10
4997
20
3574
0
VERTEX
8
0
10
5192
20
3738
0
VERTEX
8
0
10
5397
20
3866
0
VERTEX
8
0
10
5503
20
3917
0
VERTEX
8
0
10
5610
20
3957
0
VERTEX
8
0
10
5721
20
3990
0
VERTEX
8
0
10
5832
20
4012
0
VERTEX
8
0
10
6061
20
4030
0
VERTEX
8
0
10
6178
20
4026
0
VERTEX
8
0
10
6292
20
4012
0
VERTEX
8
0
10
6404
20
3990
0
VERTEX
8
0
10
6513
20
3957
0
VERTEX
8
0
10
6621
20
3917
0
VERTEX
8
0
10
6726
20
3866
0
VERTEX
8
0
10
6930
20
3738
0
VERTEX
8
0
10
7126
20
3574
0
VERTEX
8
0
10
7221
20
3479
0
VERTEX
8
0
10
7313
20
3373
0
VERTEX
8
0
10
7404
20
3260
0
VERTEX
8
0
10
7492
20
3136
0
VERTEX
8
0
10
7578
20
3004
0
VERTEX
8
0
10
7661
20
2862
0
VERTEX
8
0
10
7792
20
2616
0
VERTEX
8
0
10
7907
20
2359
0
VERTEX
8
0
10
8008
20
2092
0
VERTEX
8
0
10
8095
20
1813
0
VERTEX
8
0
10
8163
20
1551
0
VERTEX
8
0
10
8219
20
1279
0
VERTEX
8
0
10
8263
20
999
0
VERTEX
8
0
10
8294
20
709
0
SEQEND
0
POLYLINE
8
0
62
1
66
1
40
1
41
1
0
VERTEX
8
0
10
8408
20
709
0
VERTEX
8
0
10
8534
20
709
0
VERTEX
8
0
10
8502
20
1061
0
VERTEX
8
0
10
8453
20
1401
0
VERTEX
8
0
10
8389
20
1730
0
VERTEX
8
0
10
8308
20
2046
0
VERTEX
8
0
10
8213
20
2352
0
VERTEX
8
0
10
8101
20
2646
0
VERTEX
8
0
10
7974
20
2929
0
VERTEX
8
0
10
7830
20
3199
0
VERTEX
8
0
10
7654
20
3485
0
VERTEX
8
0
10
7563
20
3615
0
VERTEX
8
0
10
7469
20
3735
0
VERTEX
8
0
10
7275
20
3949
0
VERTEX
8
0
10
7175
20
4042
0
VERTEX
8
0
10
7072
20
4125
0
VERTEX
8
0
10
6862
20
4267
0
VERTEX
8
0
10
6753
20
4325
0
VERTEX
8
0
10
6642
20
4372
0
VERTEX
8
0
10
6414
20
4442
0
VERTEX
8
0
10
6297
20
4463
0
VERTEX
8
0
10
6177
20
4474
0
VERTEX
8
0
10
6074
20
4478
0
VERTEX
8
0
10
5972
20
4474
0
VERTEX
8
0
10
5737
20
4442
0
VERTEX
8
0
10
5509
20
4372
0
VERTEX
8
0
10
5400
20
4325
0
VERTEX
8
0
10
5291
20
4267
0
VERTEX
8
0
10
5079
20
4125
0
VERTEX
8
0
10
4878
20
3949
0
VERTEX
8
0
10
4684
20
3735
0
VERTEX
8
0
10
4499
20
3485
0
VERTEX
8
0
10
4321
20
3199
0
VERTEX
8
0
10
4179
20
2929
0
VERTEX
8
0
10
4052
20
2646
0
VERTEX
8
0
10
3940
20
2352
0
VERTEX
8
0
10
3844
20
2046
0
VERTEX
8
0
10
3764
20
1730
0
VERTEX
8
0
10
3699
20
1401
0
VERTEX
8
0
10
3650
20
1061
0
VERTEX
8
0
10
3616
20
709
0
VERTEX
8
0
10
3712
20
709
0
VERTEX
8
0
10
3793
20
1361
0
VERTEX
8
0
10
3839
20
1593
0
VERTEX
8
0
10
3893
20
1818
0
VERTEX
8
0
10
3955
20
2037
0
VERTEX
8
0
10
4023
20
2250
0
VERTEX
8
0
10
4101
20
2459
0
VERTEX
8
0
10
4187
20
2660
0
VERTEX
8
0
10
4281
20
2855
0
VERTEX
8
0
10
4382
20
3044
0
VERTEX
8
0
10
4471
20
3193
0
VERTEX
8
0
10
4561
20
3331
0
VERTEX
8
0
10
4654
20
3461
0
VERTEX
8
0
10
4748
20
3580
0
VERTEX
8
0
10
4846
20
3691
0
VERTEX
8
0
10
4945
20
3791
0
VERTEX
8
0
10
5047
20
3882
0
VERTEX
8
0
10
5150
20
3962
0
VERTEX
8
0
10
5257
20
4035
0
VERTEX
8
0
10
5365
20
4096
0
VERTEX
8
0
10
5476
20
4149
0
VERTEX
8
0
10
5588
20
4191
0
VERTEX
8
0
10
5704
20
4225
0
VERTEX
8
0
10
5821
20
4248
0
VERTEX
8
0
10
5940
20
4263
0
VERTEX
8
0
10
6061
20
4267
0
VERTEX
8
0
10
6184
20
4263
0
VERTEX
8
0
10
6303
20
4248
0
VERTEX
8
0
10
6420
20
4225
0
VERTEX
8
0
10
6535
20
4191
0
VERTEX
8
0
10
6648
20
4149
0
VERTEX
8
0
10
6758
20
4096
0
VERTEX
8
0
10
6867
20
4035
0
VERTEX
8
0
10
6972
20
3962
0
VERTEX
8
0
10
7077
20
3882
0
VERTEX
8
0
10
7178
20
3791
0
VERTEX
8
0
10
7277
20
3691
0
VERTEX
8
0
10
7374
20
3580
0
VERTEX
8
0
10
7469
20
3461
0
VERTEX
8
0
10
7561
20
3331
0
VERTEX
8
0
10
7651
20
3193
0
VERTEX
8
0
10
7738
20
3044
0
VERTEX
8
0
10
7924
20
2682
0
VERTEX
8
0
10
8007
20
2493
0
VERTEX
8
0
10
8081
20
2298
0
VERTEX
8
0
10
8209
20
1894
0
VERTEX
8
0
10
8263
20
1684
0
VERTEX
8
0
10
8308
20
1468
0
VERTEX
8
0
10
8408
20
709
0
SEQEND
0
POLYLINE
8
0
62
2
66
1
40
1
41
1
0
VERTEX
8
0
10
7263
20
773
0
VERTEX
8
0
10
7263
20
775
0
VERTEX
8
0
10
6953
20
1344
0
VERTEX
8
0
10
6160
20
1674
0
VERTEX
8
0
10
5366
20
1344
0
VERTEX
8
0
10
5056
20
775
0
VERTEX
8
0
10
5056
20
773
0
VERTEX
8
0
10
7263
20
773
0
SEQEND
0
POLYLINE
8
0
62
255
66
1
40
1
41
1
0
VERTEX
8
0
10
8495
20
534
0
VERTEX
8
0
10
8313
20
534
0
VERTEX
8
0
10
8313
20
88
0
VERTEX
8
0
10
8309
20
72
0
VERTEX
8
0
10
8307
20
70
0
VERTEX
8
0
10
8290
20
65
0
VERTEX
8
0
10
8267
20
38
0
VERTEX
8
0
10
8278
20
17
0
VERTEX
8
0
10
8309
20
10
0
VERTEX
8
0
10
8499
20
10
0
VERTEX
8
0
10
8531
20
19
0
VERTEX
8
0
10
8541
20
38
0
VERTEX
8
0
10
8518
20
66
0
VERTEX
8
0
10
8501
20
70
0
VERTEX
8
0
10
8499
20
72
0
VERTEX
8
0
10
8495
20
88
0
VERTEX
8
0
10
8495
20
534
0
SEQEND
0
POLYLINE
8
0
62
255
66
1
40
1
41
1
0
VERTEX
8
0
10
8299
20
534
0
VERTEX
8
0
10
8185
20
534
0
VERTEX
8
0
10
8185
20
374
0
VERTEX
8
0
10
8194
20
351
0
VERTEX
8
0
10
8215
20
342
0
VERTEX
8
0
10
8236
20
350
0
VERTEX
8
0
10
8246
20
371
0
VERTEX
8
0
10
8250
20
394
0
VERTEX
8
0
10
8267
20
448
0
VERTEX
8
0
10
8299
20
477
0
VERTEX
8
0
10
8299
20
534
0
SEQEND
0
POLYLINE
8
0
62
255
66
1
40
1
41
1
0
VERTEX
8
0
10
8624
20
534
0
VERTEX
8
0
10
8510
20
534
0
VERTEX
8
0
10
8510
20
477
0
VERTEX
8
0
10
8538
20
463
0
VERTEX
8
0
10
8559
20
394
0
VERTEX
8
0
10
8563
20
371
0
VERTEX
8
0
10
8573
20
350
0
VERTEX
8
0
10
8594
20
342
0
VERTEX
8
0
10
8616
20
351
0
VERTEX
8
0
10
8624
20
374
0
VERTEX
8
0
10
8624
20
534
0
SEQEND
0
POLYLINE
8
0
62
255
66
1
40
1
41
1
0
VERTEX
8
0
10
9162
20
534
0
VERTEX
8
0
10
9125
20
531
0
VERTEX
8
0
10
9112
20
521
0
VERTEX
8
0
10
9108
20
505
0
VERTEX
8
0
10
9112
20
489
0
VERTEX
8
0
10
9122
20
481
0
VERTEX
8
0
10
9137
20
475
0
VERTEX
8
0
10
9150
20
468
0
VERTEX
8
0
10
9162
20
450
0
VERTEX
8
0
10
9417
20
10
0
VERTEX
8
0
10
9532
20
10
0
VERTEX
8
0
10
9532
20
184
0
VERTEX
8
0
10
9330
20
534
0
VERTEX
8
0
10
9162
20
534
0
SEQEND
0
POLYLINE
8
0
62
255
66
1
40
1
41
1
0
VERTEX
8
0
10
9217
20
332
0
VERTEX
8
0
10
9162
20
403
0
VERTEX
8
0
10
9162
20
130
0
VERTEX
8
0
10
9135
20
66
0
VERTEX
8
0
10
9112
20
52
0
VERTEX
8
0
10
9107
20
37
0
VERTEX
8
0
10
9148
20
10
0
VERTEX
8
0
10
9235
20
10
0
VERTEX
8
0
10
9263
20
16
0
VERTEX
8
0
10
9274
20
37
0
VERTEX
8
0
10
9261
20
60
0
VERTEX
8
0
10
9249
20
66
0
VERTEX
8
0
10
9224
20
91
0
VERTEX
8
0
10
9217
20
130
0
VERTEX
8
0
10
9217
20
332
0
SEQEND
0
POLYLINE
8
0
62
255
66
1
40
1
41
1
0
VERTEX
8
0
10
9589
20
507
0
VERTEX
8
0
10
9582
20
524
0
VERTEX
8
0
10
9550
20
534
0
VERTEX
8
0
10
9457
20
534
0
VERTEX
8
0
10
9431
20
528
0
VERTEX
8
0
10
9422
20
507
0
VERTEX
8
0
10
9426
20
492
0
VERTEX
8
0
10
9439
20
481
0
VERTEX
8
0
10
9469
20
456
0
VERTEX
8
0
10
9477
20
412
0
VERTEX
8
0
10
9477
20
306
0
VERTEX
8
0
10
9532
20
234
0
VERTEX
8
0
10
9532
20
412
0
VERTEX
8
0
10
9539
20
453
0
VERTEX
8
0
10
9569
20
480
0
VERTEX
8
0
10
9584
20
490
0
VERTEX
8
0
10
9589
20
507
0
SEQEND
0
POLYLINE
8
0
62
255
66
1
40
1
41
1
0
VERTEX
8
0
10
6735
20
528
0
VERTEX
8
0
10
6726
20
507
0
VERTEX
8
0
10
6730
20
492
0
VERTEX
8
0
10
6743
20
481
0
VERTEX
8
0
10
6773
20
456
0
VERTEX
8
0
10
6781
20
412
0
VERTEX
8
0
10
6781
20
306
0
VERTEX
8
0
10
6836
20
234
0
VERTEX
8
0
10
6836
20
412
0
VERTEX
8
0
10
6843
20
453
0
VERTEX
8
0
10
6873
20
480
0
VERTEX
8
0
10
6888
20
490
0
VERTEX
8
0
10
6893
20
507
0
VERTEX
8
0
10
6886
20
524
0
VERTEX
8
0
10
6854
20
534
0
VERTEX
8
0
10
6761
20
534
0
VERTEX
8
0
10
6735
20
528
0
SEQEND
0
POLYLINE
8
0
62
255
66
1
40
1
41
1
0
VERTEX
8
0
10
7085
20
534
0
VERTEX
8
0
10
7048
20
531
0
VERTEX
8
0
10
7035
20
521
0
VERTEX
8
0
10
7031
20
505
0
VERTEX
8
0
10
7035
20
489
0
VERTEX
8
0
10
7045
20
481
0
VERTEX
8
0
10
7060
20
475
0
VERTEX
8
0
10
7073
20
468
0
VERTEX
8
0
10
7085
20
450
0
VERTEX
8
0
10
7340
20
10
0
VERTEX
8
0
10
7455
20
10
0
VERTEX
8
0
10
7455
20
184
0
VERTEX
8
0
10
7253
20
534
0
VERTEX
8
0
10
7085
20
534
0
SEQEND
0
POLYLINE
8
0
62
255
66
1
40
1
41
1
0
VERTEX
8
0
10
7140
20
332
0
VERTEX
8
0
10
7085
20
403
0
VERTEX
8
0
10
7085
20
130
0
VERTEX
8
0
10
7058
20
66
0
VERTEX
8
0
10
7035
20
52
0
VERTEX
8
0
10
7030
20
37
0
VERTEX
8
0
10
7071
20
10
0
VERTEX
8
0
10
7158
20
10
0
VERTEX
8
0
10
7186
20
16
0
VERTEX
8
0
10
7197
20
37
0
VERTEX
8
0
10
7184
20
60
0
VERTEX
8
0
10
7172
20
66
0
VERTEX
8
0
10
7147
20
91
0
VERTEX
8
0
10
7140
20
130
0
VERTEX
8
0
10
7140
20
332
0
SEQEND
0
POLYLINE
8
0
62
255
66
1
40
1
41
1
0
VERTEX
8
0
10
7512
20
507
0
VERTEX
8
0
10
7505
20
524
0
VERTEX
8
0
10
7473
20
534
0
VERTEX
8
0
10
7380
20
534
0
VERTEX
8
0
10
7354
20
528
0
VERTEX
8
0
10
7345
20
507
0
VERTEX
8
0
10
7349
20
492
0
VERTEX
8
0
10
7362
20
481
0
VERTEX
8
0
10
7392
20
456
0
VERTEX
8
0
10
7400
20
412
0
VERTEX
8
0
10
7400
20
306
0
VERTEX
8
0
10
7455
20
234
0
VERTEX
8
0
10
7455
20
412
0
VERTEX
8
0
10
7462
20
453
0
VERTEX
8
0
10
7492
20
480
0
VERTEX
8
0
10
7507
20
490
0
VERTEX
8
0
10
7512
20
507
0
SEQEND
0
POLYLINE
8
0
62
255
66
1
40
1
41
1
0
VERTEX
8
0
10
7683
20
534
0
VERTEX
8
0
10
7657
20
528
0
VERTEX
8
0
10
7647
20
507
0
VERTEX
8
0
10
7663
20
481
0
VERTEX
8
0
10
7680
20
476
0
VERTEX
8
0
10
7682
20
473
0
VERTEX
8
0
10
7685
20
459
0
VERTEX
8
0
10
7685
20
85
0
VERTEX
8
0
10
7682
20
71
0
VERTEX
8
0
10
7680
20
69
0
VERTEX
8
0
10
7662
20
63
0
VERTEX
8
0
10
7647
20
37
0
VERTEX
8
0
10
7657
20
17
0
VERTEX
8
0
10
7683
20
10
0
VERTEX
8
0
10
7867
20
10
0
VERTEX
8
0
10
7867
20
534
0
VERTEX
8
0
10
7683
20
534
0
SEQEND
0
POLYLINE
8
0
62
255
66
1
40
1
41
1
0
VERTEX
8
0
10
7883
20
303
0
VERTEX
8
0
10
7883
20
249
0
VERTEX
8
0
10
7915
20
232
0
VERTEX
8
0
10
7931
20
196
0
VERTEX
8
0
10
7941
20
174
0
VERTEX
8
0
10
7960
20
167
0
VERTEX
8
0
10
7980
20
177
0
VERTEX
8
0
10
7986
20
206
0
VERTEX
8
0
10
7986
20
348
0
VERTEX
8
0
10
7982
20
374
0
VERTEX
8
0
10
7959
20
387
0
VERTEX
8
0
10
7940
20
379
0
VERTEX
8
0
10
7930
20
357
0
VERTEX
8
0
10
7916
20
326
0
VERTEX
8
0
10
7883
20
303
0
SEQEND
0
POLYLINE
8
0
62
255
66
1
40
1
41
1
0
VERTEX
8
0
10
8044
20
373
0
VERTEX
8
0
10
8050
20
395
0
VERTEX
8
0
10
8050
20
534
0
VERTEX
8
0
10
7885
20
534
0
VERTEX
8
0
10
7885
20
476
0
VERTEX
8
0
10
7958
20
450
0
VERTEX
8
0
10
7998
20
387
0
VERTEX
8
0
10
8007
20
370
0
VERTEX
8
0
10
8024
20
365
0
VERTEX
8
0
10
8044
20
373
0
SEQEND
0
POLYLINE
8
0
62
255
66
1
40
1
41
1
0
VERTEX
8
0
10
8056
20
149
0
VERTEX
8
0
10
8050
20
176
0
VERTEX
8
0
10
8029
20
185
0
VERTEX
8
0
10
8012
20
179
0
VERTEX
8
0
10
8002
20
163
0
VERTEX
8
0
10
7984
20
121
0
VERTEX
8
0
10
7959
20
94
0
VERTEX
8
0
10
7930
20
75
0
VERTEX
8
0
10
7885
20
64
0
VERTEX
8
0
10
7885
20
10
0
VERTEX
8
0
10
8056
20
10
0
VERTEX
8
0
10
8056
20
149
0
SEQEND
0
POLYLINE
8
0
62
255
66
1
40
1
41
1
0
VERTEX
8
0
10
6721
20
10
0
VERTEX
8
0
10
6836
20
10
0
VERTEX
8
0
10
6836
20
184
0
VERTEX
8
0
10
6634
20
534
0
VERTEX
8
0
10
6466
20
534
0
VERTEX
8
0
10
6429
20
531
0
VERTEX
8
0
10
6416
20
521
0
VERTEX
8
0
10
6412
20
505
0
VERTEX
8
0
10
6416
20
489
0
VERTEX
8
0
10
6426
20
481
0
VERTEX
8
0
10
6441
20
475
0
VERTEX
8
0
10
6454
20
468
0
VERTEX
8
0
10
6466
20
450
0
VERTEX
8
0
10
6721
20
10
0
SEQEND
0
POLYLINE
8
0
62
255
66
1
40
1
41
1
0
VERTEX
8
0
10
6539
20
10
0
VERTEX
8
0
10
6567
20
16
0
VERTEX
8
0
10
6578
20
37
0
VERTEX
8
0
10
6565
20
60
0
VERTEX
8
0
10
6553
20
66
0
VERTEX
8
0
10
6528
20
91
0
VERTEX
8
0
10
6521
20
130
0
VERTEX
8
0
10
6521
20
332
0
VERTEX
8
0
10
6466
20
403
0
VERTEX
8
0
10
6466
20
130
0
VERTEX
8
0
10
6439
20
66
0
VERTEX
8
0
10
6416
20
52
0
VERTEX
8
0
10
6411
20
37
0
VERTEX
8
0
10
6452
20
10
0
VERTEX
8
0
10
6539
20
10
0
SEQEND
0
POLYLINE
8
0
62
255
66
1
40
1
41
1
0
VERTEX
8
0
10
8916
20
24
0
VERTEX
8
0
10
8939
20
80
0
VERTEX
8
0
10
8916
20
137
0
VERTEX
8
0
10
8859
20
160
0
VERTEX
8
0
10
8802
20
137
0
VERTEX
8
0
10
8779
20
80
0
VERTEX
8
0
10
8802
20
23
0
VERTEX
8
0
10
8859
20
0
0
VERTEX
8
0
10
8916
20
24
0
SEQEND
0
POLYLINE
8
0
62
255
66
1
40
1
41
1
0
VERTEX
8
0
10
9990
20
507
0
VERTEX
8
0
10
9980
20
526
0
VERTEX
8
0
10
9949
20
534
0
VERTEX
8
0
10
9760
20
534
0
VERTEX
8
0
10
9734
20
528
0
VERTEX
8
0
10
9724
20
507
0
VERTEX
8
0
10
9740
20
481
0
VERTEX
8
0
10
9757
20
476
0
VERTEX
8
0
10
9759
20
473
0
VERTEX
8
0
10
9762
20
459
0
VERTEX
8
0
10
9762
20
85
0
VERTEX
8
0
10
9759
20
71
0
VERTEX
8
0
10
9757
20
69
0
VERTEX
8
0
10
9739
20
63
0
VERTEX
8
0
10
9724
20
37
0
VERTEX
8
0
10
9734
20
17
0
VERTEX
8
0
10
9760
20
10
0
VERTEX
8
0
10
9944
20
10
0
VERTEX
8
0
10
9944
20
456
0
VERTEX
8
0
10
9949
20
475
0
VERTEX
8
0
10
9950
20
475
0
VERTEX
8
0
10
9966
20
478
0
VERTEX
8
0
10
9990
20
507
0
SEQEND
0
POLYLINE
8
0
62
255
66
1
40
1
41
1
0
VERTEX
8
0
10
10071
20
193
0
VERTEX
8
0
10
10059
20
165
0
VERTEX
8
0
10
10038
20
117
0
VERTEX
8
0
10
10012
20
86
0
VERTEX
8
0
10
9992
20
74
0
VERTEX
8
0
10
9958
20
66
0
VERTEX
8
0
10
9958
20
10
0
VERTEX
8
0
10
10117
20
10
0
VERTEX
8
0
10
10117
20
169
0
VERTEX
8
0
10
10113
20
190
0
VERTEX
8
0
10
10091
20
202
0
VERTEX
8
0
10
10071
20
193
0
SEQEND
0
POLYLINE
8
0
62
255
66
1
40
1
41
1
0
VERTEX
8
0
10
2830
20
520
0
VERTEX
8
0
10
2826
20
517
0
VERTEX
8
0
10
2819
20
518
0
VERTEX
8
0
10
2769
20
536
0
VERTEX
8
0
10
2720
20
543
0
VERTEX
8
0
10
2720
20
488
0
VERTEX
8
0
10
2787
20
460
0
VERTEX
8
0
10
2812
20
416
0
VERTEX
8
0
10
2826
20
378
0
VERTEX
8
0
10
2830
20
364
0
VERTEX
8
0
10
2837
20
354
0
VERTEX
8
0
10
2856
20
348
0
VERTEX
8
0
10
2878
20
357
0
VERTEX
8
0
10
2886
20
380
0
VERTEX
8
0
10
2886
20
503
0
VERTEX
8
0
10
2880
20
531
0
VERTEX
8
0
10
2859
20
541
0
VERTEX
8
0
10
2840
20
532
0
VERTEX
8
0
10
2830
20
520
0
SEQEND
0
POLYLINE
8
0
62
255
66
1
40
1
41
1
0
VERTEX
8
0
10
2534
20
448
0
VERTEX
8
0
10
2516
20
366
0
VERTEX
8
0
10
2594
20
226
0
VERTEX
8
0
10
2622
20
206
0
VERTEX
8
0
10
2686
20
177
0
VERTEX
8
0
10
2742
20
147
0
VERTEX
8
0
10
2761
20
110
0
VERTEX
8
0
10
2748
20
77
0
VERTEX
8
0
10
2700
20
56
0
VERTEX
8
0
10
2700
20
0
0
VERTEX
8
0
10
2759
20
7
0
VERTEX
8
0
10
2810
20
26
0
VERTEX
8
0
10
2878
20
92
0
VERTEX
8
0
10
2904
20
184
0
VERTEX
8
0
10
2850
20
301
0
VERTEX
8
0
10
2821
20
330
0
VERTEX
8
0
10
2768
20
357
0
VERTEX
8
0
10
2692
20
390
0
VERTEX
8
0
10
2667
20
413
0
VERTEX
8
0
10
2658
20
442
0
VERTEX
8
0
10
2669
20
470
0
VERTEX
8
0
10
2706
20
488
0
VERTEX
8
0
10
2706
20
544
0
VERTEX
8
0
10
2585
20
509
0
VERTEX
8
0
10
2534
20
448
0
SEQEND
0
POLYLINE
8
0
62
255
66
1
40
1
41
1
0
VERTEX
8
0
10
3087
20
534
0
VERTEX
8
0
10
3061
20
528
0
VERTEX
8
0
10
3051
20
507
0
VERTEX
8
0
10
3067
20
481
0
VERTEX
8
0
10
3084
20
476
0
VERTEX
8
0
10
3086
20
473
0
VERTEX
8
0
10
3089
20
459
0
VERTEX
8
0
10
3089
20
85
0
VERTEX
8
0
10
3086
20
71
0
VERTEX
8
0
10
3084
20
69
0
VERTEX
8
0
10
3066
20
63
0
VERTEX
8
0
10
3051
20
37
0
VERTEX
8
0
10
3061
20
17
0
VERTEX
8
0
10
3087
20
10
0
VERTEX
8
0
10
3271
20
10
0
VERTEX
8
0
10
3271
20
534
0
VERTEX
8
0
10
3087
20
534
0
SEQEND
0
POLYLINE
8
0
62
255
66
1
40
1
41
1
0
VERTEX
8
0
10
2687
20
0
0
VERTEX
8
0
10
2687
20
56
0
VERTEX
8
0
10
2636
20
76
0
VERTEX
8
0
10
2597
20
127
0
VERTEX
8
0
10
2573
20
185
0
VERTEX
8
0
10
2563
20
206
0
VERTEX
8
0
10
2544
20
213
0
VERTEX
8
0
10
2524
20
203
0
VERTEX
8
0
10
2516
20
180
0
VERTEX
8
0
10
2516
20
45
0
VERTEX
8
0
10
2545
20
5
0
VERTEX
8
0
10
2566
20
16
0
VERTEX
8
0
10
2575
20
26
0
VERTEX
8
0
10
2582
20
28
0
VERTEX
8
0
10
2590
20
26
0
VERTEX
8
0
10
2612
20
18
0
VERTEX
8
0
10
2687
20
0
0
SEQEND
0
POLYLINE
8
0
62
255
66
1
40
1
41
1
0
VERTEX
8
0
10
5253
20
534
0
VERTEX
8
0
10
5227
20
528
0
VERTEX
8
0
10
5217
20
507
0
VERTEX
8
0
10
5233
20
481
0
VERTEX
8
0
10
5250
20
476
0
VERTEX
8
0
10
5252
20
473
0
VERTEX
8
0
10
5255
20
459
0
VERTEX
8
0
10
5255
20
85
0
VERTEX
8
0
10
5252
20
71
0
VERTEX
8
0
10
5250
20
69
0
VERTEX
8
0
10
5232
20
63
0
VERTEX
8
0
10
5217
20
37
0
VERTEX
8
0
10
5227
20
17
0
VERTEX
8
0
10
5253
20
10
0
VERTEX
8
0
10
5442
20
10
0
VERTEX
8
0
10
5473
20
19
0
VERTEX
8
0
10
5483
20
38
0
VERTEX
8
0
10
5460
20
66
0
VERTEX
8
0
10
5443
20
70
0
VERTEX
8
0
10
5441
20
72
0
VERTEX
8
0
10
5437
20
88
0
VERTEX
8
0
10
5437
20
534
0
VERTEX
8
0
10
5253
20
534
0
SEQEND
0
POLYLINE
8
0
62
255
66
1
40
1
41
1
0
VERTEX
8
0
10
4875
20
482
0
VERTEX
8
0
10
4884
20
472
0
VERTEX
8
0
10
4889
20
444
0
VERTEX
8
0
10
4889
20
111
0
VERTEX
8
0
10
4888
20
72
0
VERTEX
8
0
10
4873
20
61
0
VERTEX
8
0
10
4855
20
55
0
VERTEX
8
0
10
4855
20
0
0
VERTEX
8
0
10
5007
20
64
0
VERTEX
8
0
10
5082
20
272
0
VERTEX
8
0
10
5003
20
483
0
VERTEX
8
0
10
4939
20
527
0
VERTEX
8
0
10
4855
20
544
0
VERTEX
8
0
10
4855
20
491
0
VERTEX
8
0
10
4875
20
482
0
SEQEND
0
POLYLINE
8
0
62
255
66
1
40
1
41
1
0
VERTEX
8
0
10
5539
20
531
0
VERTEX
8
0
10
5468
20
534
0
VERTEX
8
0
10
5451
20
534
0
VERTEX
8
0
10
5451
20
480
0
VERTEX
8
0
10
5485
20
462
0
VERTEX
8
0
10
5493
20
432
0
VERTEX
8
0
10
5493
20
333
0
VERTEX
8
0
10
5491
20
311
0
VERTEX
8
0
10
5483
20
298
0
VERTEX
8
0
10
5451
20
289
0
VERTEX
8
0
10
5451
20
235
0
VERTEX
8
0
10
5483
20
223
0
VERTEX
8
0
10
5493
20
200
0
VERTEX
8
0
10
5493
20
177
0
VERTEX
8
0
10
5493
20
114
0
VERTEX
8
0
10
5523
20
31
0
VERTEX
8
0
10
5605
20
0
0
VERTEX
8
0
10
5650
20
6
0
VERTEX
8
0
10
5683
20
23
0
VERTEX
8
0
10
5715
20
57
0
VERTEX
8
0
10
5727
20
88
0
VERTEX
8
0
10
5718
20
107
0
VERTEX
8
0
10
5700
20
116
0
VERTEX
8
0
10
5674
20
100
0
VERTEX
8
0
10
5671
20
96
0
VERTEX
8
0
10
5670
20
96
0
VERTEX
8
0
10
5670
20
177
0
VERTEX
8
0
10
5661
20
214
0
VERTEX
8
0
10
5634
20
244
0
VERTEX
8
0
10
5599
20
263
0
VERTEX
8
0
10
5552
20
270
0
VERTEX
8
0
10
5603
20
281
0
VERTEX
8
0
10
5638
20
305
0
VERTEX
8
0
10
5673
20
397
0
VERTEX
8
0
10
5620
20
502
0
VERTEX
8
0
10
5539
20
531
0
SEQEND
0
POLYLINE
8
0
62
255
66
1
40
1
41
1
0
VERTEX
8
0
10
5893
20
534
0
VERTEX
8
0
10
5867
20
528
0
VERTEX
8
0
10
5857
20
507
0
VERTEX
8
0
10
5873
20
481
0
VERTEX
8
0
10
5890
20
476
0
VERTEX
8
0
10
5892
20
473
0
VERTEX
8
0
10
5895
20
459
0
VERTEX
8
0
10
5895
20
85
0
VERTEX
8
0
10
5892
20
71
0
VERTEX
8
0
10
5890
20
69
0
VERTEX
8
0
10
5872
20
63
0
VERTEX
8
0
10
5857
20
37
0
VERTEX
8
0
10
5867
20
17
0
VERTEX
8
0
10
5893
20
10
0
VERTEX
8
0
10
6077
20
10
0
VERTEX
8
0
10
6077
20
534
0
VERTEX
8
0
10
5893
20
534
0
SEQEND
0
POLYLINE
8
0
62
255
66
1
40
1
41
1
0
VERTEX
8
0
10
6260
20
534
0
VERTEX
8
0
10
6095
20
534
0
VERTEX
8
0
10
6095
20
476
0
VERTEX
8
0
10
6168
20
450
0
VERTEX
8
0
10
6208
20
387
0
VERTEX
8
0
10
6217
20
370
0
VERTEX
8
0
10
6234
20
365
0
VERTEX
8
0
10
6254
20
373
0
VERTEX
8
0
10
6260
20
395
0
VERTEX
8
0
10
6260
20
534
0
SEQEND
0
POLYLINE
8
0
62
255
66
1
40
1
41
1
0
VERTEX
8
0
10
6169
20
387
0
VERTEX
8
0
10
6150
20
379
0
VERTEX
8
0
10
6140
20
357
0
VERTEX
8
0
10
6126
20
326
0
VERTEX
8
0
10
6093
20
303
0
VERTEX
8
0
10
6093
20
249
0
VERTEX
8
0
10
6125
20
232
0
VERTEX
8
0
10
6141
20
196
0
VERTEX
8
0
10
6151
20
174
0
VERTEX
8
0
10
6170
20
167
0
VERTEX
8
0
10
6190
20
177
0
VERTEX
8
0
10
6196
20
206
0
VERTEX
8
0
10
6196
20
348
0
VERTEX
8
0
10
6192
20
374
0
VERTEX
8
0
10
6169
20
387
0
SEQEND
0
POLYLINE
8
0
62
255
66
1
40
1
41
1
0
VERTEX
8
0
10
3609
20
521
0
VERTEX
8
0
10
3605
20
505
0
VERTEX
8
0
10
3609
20
489
0
VERTEX
8
0
10
3619
20
481
0
VERTEX
8
0
10
3634
20
475
0
VERTEX
8
0
10
3647
20
468
0
VERTEX
8
0
10
3659
20
450
0
VERTEX
8
0
10
3914
20
10
0
VERTEX
8
0
10
4029
20
10
0
VERTEX
8
0
10
4029
20
184
0
VERTEX
8
0
10
3827
20
534
0
VERTEX
8
0
10
3659
20
534
0
VERTEX
8
0
10
3622
20
531
0
VERTEX
8
0
10
3609
20
521
0
SEQEND
0
POLYLINE
8
0
62
255
66
1
40
1
41
1
0
VERTEX
8
0
10
3362
20
450
0
VERTEX
8
0
10
3402
20
387
0
VERTEX
8
0
10
3411
20
370
0
VERTEX
8
0
10
3428
20
365
0
VERTEX
8
0
10
3448
20
373
0
VERTEX
8
0
10
3454
20
395
0
VERTEX
8
0
10
3454
20
534
0
VERTEX
8
0
10
3289
20
534
0
VERTEX
8
0
10
3289
20
476
0
VERTEX
8
0
10
3362
20
450
0
SEQEND
0
POLYLINE
8
0
62
255
66
1
40
1
41
1
0
VERTEX
8
0
10
3386
20
374
0
VERTEX
8
0
10
3363
20
387
0
VERTEX
8
0
10
3344
20
379
0
VERTEX
8
0
10
3334
20
357
0
VERTEX
8
0
10
3320
20
326
0
VERTEX
8
0
10
3287
20
303
0
VERTEX
8
0
10
3287
20
249
0
VERTEX
8
0
10
3319
20
232
0
VERTEX
8
0
10
3335
20
196
0
VERTEX
8
0
10
3345
20
174
0
VERTEX
8
0
10
3364
20
167
0
VERTEX
8
0
10
3384
20
177
0
VERTEX
8
0
10
3390
20
206
0
VERTEX
8
0
10
3390
20
348
0
VERTEX
8
0
10
3386
20
374
0
SEQEND
0
POLYLINE
8
0
62
255
66
1
40
1
41
1
0
VERTEX
8
0
10
3928
20
528
0
VERTEX
8
0
10
3919
20
507
0
VERTEX
8
0
10
3923
20
492
0
VERTEX
8
0
10
3936
20
481
0
VERTEX
8
0
10
3966
20
456
0
VERTEX
8
0
10
3974
20
412
0
VERTEX
8
0
10
3974
20
306
0
VERTEX
8
0
10
4029
20
234
0
VERTEX
8
0
10
4029
20
412
0
VERTEX
8
0
10
4036
20
453
0
VERTEX
8
0
10
4066
20
480
0
VERTEX
8
0
10
4081
20
490
0
VERTEX
8
0
10
4086
20
507
0
VERTEX
8
0
10
4079
20
524
0
VERTEX
8
0
10
4047
20
534
0
VERTEX
8
0
10
3954
20
534
0
VERTEX
8
0
10
3928
20
528
0
SEQEND
0
POLYLINE
8
0
62
255
66
1
40
1
41
1
0
VERTEX
8
0
10
3714
20
332
0
VERTEX
8
0
10
3659
20
403
0
VERTEX
8
0
10
3659
20
130
0
VERTEX
8
0
10
3632
20
66
0
VERTEX
8
0
10
3609
20
52
0
VERTEX
8
0
10
3604
20
37
0
VERTEX
8
0
10
3645
20
10
0
VERTEX
8
0
10
3732
20
10
0
VERTEX
8
0
10
3760
20
16
0
VERTEX
8
0
10
3771
20
37
0
VERTEX
8
0
10
3758
20
60
0
VERTEX
8
0
10
3746
20
66
0
VERTEX
8
0
10
3721
20
91
0
VERTEX
8
0
10
3714
20
130
0
VERTEX
8
0
10
3714
20
332
0
SEQEND
0
POLYLINE
8
0
62
255
66
1
40
1
41
1
0
VERTEX
8
0
10
4444
20
534
0
VERTEX
8
0
10
4258
20
534
0
VERTEX
8
0
10
4232
20
528
0
VERTEX
8
0
10
4222
20
507
0
VERTEX
8
0
10
4238
20
481
0
VERTEX
8
0
10
4255
20
476
0
VERTEX
8
0
10
4257
20
473
0
VERTEX
8
0
10
4260
20
459
0
VERTEX
8
0
10
4260
20
85
0
VERTEX
8
0
10
4257
20
71
0
VERTEX
8
0
10
4255
20
69
0
VERTEX
8
0
10
4237
20
63
0
VERTEX
8
0
10
4222
20
37
0
VERTEX
8
0
10
4232
20
17
0
VERTEX
8
0
10
4258
20
10
0
VERTEX
8
0
10
4444
20
10
0
VERTEX
8
0
10
4470
20
17
0
VERTEX
8
0
10
4480
20
37
0
VERTEX
8
0
10
4464
20
63
0
VERTEX
8
0
10
4447
20
69
0
VERTEX
8
0
10
4445
20
71
0
VERTEX
8
0
10
4442
20
85
0
VERTEX
8
0
10
4442
20
459
0
VERTEX
8
0
10
4445
20
473
0
VERTEX
8
0
10
4447
20
476
0
VERTEX
8
0
10
4464
20
481
0
VERTEX
8
0
10
4480
20
507
0
VERTEX
8
0
10
4470
20
528
0
VERTEX
8
0
10
4444
20
534
0
SEQEND
0
POLYLINE
8
0
62
255
66
1
40
1
41
1
0
VERTEX
8
0
10
4839
20
544
0
VERTEX
8
0
10
4755
20
527
0
VERTEX
8
0
10
4691
20
483
0
VERTEX
8
0
10
4632
20
392
0
VERTEX
8
0
10
4612
20
272
0
VERTEX
8
0
10
4687
20
64
0
VERTEX
8
0
10
4839
20
0
0
VERTEX
8
0
10
4839
20
54
0
VERTEX
8
0
10
4814
20
67
0
VERTEX
8
0
10
4805
20
111
0
VERTEX
8
0
10
4805
20
444
0
VERTEX
8
0
10
4811
20
474
0
VERTEX
8
0
10
4839
20
491
0
VERTEX
8
0
10
4839
20
544
0
SEQEND
0
POLYLINE
8
0
62
255
66
1
40
1
41
1
0
VERTEX
8
0
10
3460
20
149
0
VERTEX
8
0
10
3454
20
176
0
VERTEX
8
0
10
3433
20
185
0
VERTEX
8
0
10
3416
20
179
0
VERTEX
8
0
10
3406
20
163
0
VERTEX
8
0
10
3388
20
121
0
VERTEX
8
0
10
3363
20
94
0
VERTEX
8
0
10
3334
20
75
0
VERTEX
8
0
10
3289
20
64
0
VERTEX
8
0
10
3289
20
10
0
VERTEX
8
0
10
3460
20
10
0
VERTEX
8
0
10
3460
20
149
0
SEQEND
0
POLYLINE
8
0
62
255
66
1
40
1
41
1
0
VERTEX
8
0
10
6266
20
149
0
VERTEX
8
0
10
6260
20
176
0
VERTEX
8
0
10
6239
20
185
0
VERTEX
8
0
10
6222
20
179
0
VERTEX
8
0
10
6212
20
163
0
VERTEX
8
0
10
6194
20
121
0
VERTEX
8
0
10
6169
20
94
0
VERTEX
8
0
10
6140
20
75
0
VERTEX
8
0
10
6095
20
64
0
VERTEX
8
0
10
6095
20
10
0
VERTEX
8
0
10
6266
20
10
0
VERTEX
8
0
10
6266
20
149
0
SEQEND
0
ENDSEC
0
EOF
